Bass Tabs

Only available on StudyMode
  • Topic: Judas Priest, Rob Halford
  • Pages : 17 (2146 words )
  • Download(s) : 153
  • Published : June 1, 2013
Open Document
Text Preview
Judas Priest – Wheels of Fire
From “Angel Of Retribution”
unseen_apocalypse@hotmail.co.uk (Maff)
Unseen Apocalypse

Lyrics are not at the end of file

Starts with strange noises, to do with feedback or something

Regular Tuning EADGBe
Intro (Heavy Distortion) guitar 1

[A]
---------------------------------------------------------|
---------------------------------------------------------|
---------------------------------------------------------|
--5---------5---------5---7------------------------------|
--5---------5---------5---7------------------------------|
--3-0-0-0-0-3-0-0-0-0-3-0-5------------------------------|

[B] Guitar 1 and 2 after [A]
---------------------------------------------------------|
---------------------------------------------------------|
---------------------------------------------------------|
--5---------5--------------------------------------------|
--5---------5--------------------------------------------|
--3-0-0-0-0-3-0-0-0-0-0-0-0-0----------------------------|

---------------------------------------------------------|
---------------------------------------------------------|
---------------------------------------------------------|
--5---------5---------5---7------------------------------|
--5---------5---------5---7------------------------------|
--3-0-0-0-0-3-0-0-0-0-3-0-5------------------------------|

---------------------------------------------------------|
---------------------------------------------------------|
---------------------------------------------------------|
--5---------5--------------------------------------------|
--5---------5--------------------------------------------|
--3-0-0-0-0-3-0-0-0-0-0-0-0-0----------------------------|

Verses 1 and 2

1. Born on the other side - Of The Track
2. Gotta Get Outta Here - I Won’t Look Back
------------------- ---------------------------- -----------| ------------------- ---------------------------- -----------| ------------------- 7--9--7--9------------------ -----------| ------------------- 7--9--7--9------------------ -5-/-7--2--| ------------------- 5--7--5--7------------------ -5-/-7--2--| --0-0-0-0-0-0-0-0-- ------------0-0-0-0-0-0-0-0- -3-/-5--0--|

Born On The Other Side-Wild As A Hurricane-Livin’ in Overdrive ---------------------------------------------------------------| ---------------------------------------------------------------| --5----------------2-----------------------5--------------7----| --5----------------2----2--------------5---5--------------7----| --3----------------0----2--------------5---3--------------5----| ------------------------0--------------3-----------------------|

Chorus part 1
1.Wheels Of Fire
2.In My Soul
----------------------------------------------------------------------| ----------------------------------------------------------------------| ----------------------------------------------------------------------| ----------------------------------------------------------------------| ----------------------------------------------------------------------| --6---5---3---5---3----0---0-0-0-0-0-0-0-0---6---5----3----5----3---0-|

Chorus Part 2

Wheels of Fire Wheels of fire let em’ roll
--------------------------------------------------------------------| --------------------------------------------------------------------| --------------------------------------------------------------------| --------------------5----------4----3-------------------------------| --------------------5----------4----3-------------------------------| --0-0-0-0-0-0-0-0---3----------2----1-------------------------------|

Start This As Halford Says ‘Roll’ At end of Chorus
---------------------------------------------------------|
---------------------------------------------------------|...
tracking img