Pag-Aaral Tungkol Sa Laguna

Only available on StudyMode
  • Topic: Guitar tunings, Resource Interchange File Format, Verse-chorus form
  • Pages : 3 (271 words )
  • Download(s) : 4088
  • Published : February 26, 2013
Open Document
Text Preview
Title: Chinelas
Artist: Kamikazee
Album: Kamikazee
Transcribed by: The Spikekikay
Tuning: Standard (E A D G B E)
Legend: - - palm mute
h - hammer on
~ - let ring

Intro:

Guitar 1 Guitar 2
----------------- ----------------------------------|
----------------- ----------------------------------|
----------------- ----------------------------------|
-----------------4x ----------------------------------|4x
-0-1-2-0-2-3-0-0- ----------------------------------|
-0-1-2-0-2-3-0-0- -0-1h2-0-2h3-0-1h2-0-2h3-0-3-4-3--|
- - - - - - - - - - - -

*note - the riffs look like a drop d chord but it isn't
it is an inverted chord

Guitar 1 & 2
----------------------------------|
----------------------------------|
----------------------------------|
----------------------------------|
-0-1h2-0-2h3-0-1h2-0-2h3-0-3-4-3--|
-0-1h2-0-2h3-0-1h2-0-2h3-0-3-4-3--|
- - - - - - - -

Verse:
Nasan na kaya...
-------------------------------|
---------2~~0~~2~~0~~2~~0~~2~~-|
---------0~~0~~0~~0~~0~~0~~0~~-|
-2~~~~---5~~4~~5~~4~~5~~4~~5~~-|
-2~~~~---3~~2~~3~~2~~3~~2~~3~~-|
-0~~~~-------------------------|

Wala sa kwarto...
-----------------------------------------------------------------------------------|...
tracking img